PDA

View Full Version : So I started learning sweep arpeggios...



Skaterdude
01-19-2007, 12:56 AM
I started with some repetitive ascending and descending riffs on 3 strings, and I think that I might be ready to try 4 strings. If anyone could show me some tabbed 4-string arpeggios, I'd probably rep them and if need be, bear their children.

ispitfire
01-19-2007, 01:03 PM
i completely forgot arpegios. i have them tabbed somewhere buts its all strings. ill go look now but im not promising anything

ispitfire
01-19-2007, 01:14 PM
ill give you the 2 most famous minor arpegios. for these you use pentatonic forms.

Form 4 (most famous)
-----------------------1---6----
-------------------2------------
---------------3---------------- and repeat
-----------3--------------------
---1---4------------------------
--------------------------------

Form 1 (2nd famous)
---------------------------1---
-----------------------1-------
-------------------1----------- but only play the "1" at the end once. so
---------------3--------------- you dont get the two "1's" back to back.
-----------3-------------------
---1---4-----------------------


hope this helped. also remember this is with pentatonic forms

Snake
01-19-2007, 01:25 PM
http://www.ultimate-guitar.com/lessons/guitar_techniques/sweep_picking_arpeggios.html
Just a little bit of stuff