PDA

View Full Version : Bass Tabs...



magic mushroom
12-28-2005, 11:59 PM
hey, for whoever wants some bass tabs, here they are! *Don't hate about the Greenday stuff. i thought their bass would be easy for a learner (me), and i hope you like Blink 182, 'coz i got a whole album.

FEEL GOOD INC. (bass)

tune every string down to E flat, A flat, etc.


Bass
E---0-023-------------3-0
A---------2-0---0-032---- repeat for whole song
D------------------------
G------------------------


SMOKE ON THE WATER (bass)

Bass-

A:

G--------------------------------
D--------------------------------
A------------------------333-1---
E-01233333333333330123333------3-Repeat 6x
B:

G--------------------------------
D-5-5-5-5-5-5-5-5---55-3-55------
A-5-5-5-5-5-5-5-5---55-3-55------
E-3-3-3-3-3-3-3-3---33-1-33------Repeat 4x

C:

G------------------------------------
D-6---6--6-6-6-6-6-6-6---9-9-9-9-9-9-
A-6---6--6-6-6-6-6-6-6---6-6-6-6-6-6-
E-4---4--4-4-4-4-4-4-4---4-4-4-4-4-4-Repeat 2x

AMERICAN IDIOT (bass)

this is the bass tab for american idiot.

Intro/Verse
-------------------------------------------
-------------------------------------------
----------4-4-4--------4-------------------
---4-4-4---------2-2-----4---2-------------
Chorus
-------------------------------------------
-------------------------------------------Strum each note alot
----4--------------------6-----------------
---------------4-----------------4---------

BOULEVARD OF BROKEN DREAMS (bass)

Green day – Boulevard of Broken Dreams
Tuning: GDAE
Tabber: A.M.P.S

p - pull off
x - mute

I copied most of it from bloodredromance’s tab but the outro wasn’t correct.
My credits to him.

(After the intro the guitar plays this piece once solo, then you come in)
Verse Pre chorus
G------------------------------- G----------------------------------
D------------------------------- D----------------------------------
A-------------------6-6-------- A------------------6-6—3333--------
E-1-1—44—4 --------6p4—--------(5x) E-1-1—44—4-------------------------(1x)

Chorus

G -------------------------------------------------------
D -------------------------------------------------------
A-4444-------6666-------4444-------6666-8888-------------
E-------4444-------1111-------4444-----------------------

G -------------------------------------------------------
D -------------------------------------------------------
A-4444--------6666------4444------33333X-----------------
E--------4444------1111------4444------------------------

Play Verse (8x)
Pre Chorus (1x)
Chorus (1x)
Verse (1x)
Pre Chorus (1x)

Chorus 2

G -------------------------------------------------------
D -------------------------------------------------------
A-4444------6666-------4444------6666-8888---------------
E------4444------1111-------4444-------------------------

G -------------------------------------------------------
D -------------------------------------------------------
A-44X-------6666-------44X------33333X-------------------
E-----44X--------1111-------44X--------------------------

Singing and Guitar only

Chorus 3

G -------------------------------------------------------
D -------------------------------------------------------
A-4444-------6666------4444-------6666-8888--------------
E------4444-------1111------4444-------------------------

G -------------------------------------------------------
D -------------------------------------------------------
A-4444------6666-------4444------333333333333------------
E------4444-------1111------4444-------------------------

Outro

G---------------------------------------------------------
D ------11-1111-13-1313-12-1212---------------------------
A-8-88--------------------------11-1111-7-77--------------
E--------------------------------------------------------- (3x)

G---------------------------------------------------------
D ------11-1111-13-1313-12-1212---------------------------
A-8-88--------------------------1111-77-------------------
E--------------------------------------------------------- (1x) (read 11 , 12, and 13)


HOLIDAY (bass)

Here is the tab for holiday on bass. You shouldn't have any problems.

Intro
-------------------------------------------
-------------------------------------------
-8-8-8----4-4-4--11-11-11--6-6-6-----------
-------------------------------------------
Verse
------------------------------------------------------------
------------------------------------------------------------
-8-8-8--4-4-4----------6-6-6-----8-8-8--4-4-4---------3-3-3-
---------------4-4-4---------------------------4-4-4--------
Verse continued
-----------------------------------------
-----------------------------------------
-8-8-8--4-4-4---------6-6-6--3-3-3-------
---------------4-4-4---------------------
Chorus
-------------------------------------------------------------------------
-------------------------------------------------------------------------
-------------4-4-4-4-----------6-6-6-6-----------4-4-4-4---------3-3-3-3-
--1-1-1-1-------------4-4-4-4------------1-1-1-1---------4-4-4-4---------
Bass interlude
----------------------------------------------------------
----------------------------------------------------------
----------------4---6---------------------6--8------------
-1-1-1--4-4-4-----6---8/---1-1-1--4-4-4-----8--8/---------


SHE HATES ME (bass) (2)
Band: Puddle of Mudd
Song: She hates me
Tabbed by: Denishguy

standart tunning

Verse + Chorus

D ----------------------------------------------------------------------
G ---------------------------------------------------------------------
H --------00---------------22222-----------------------------------
E --0-0----------2--2------------------------------------------------


BLINK 182 Album

Song #1:Feeling This

Enter at 0:12

Verse
G|-------------------------
D|----------------6-------- x4
A|7777-7/11-7-4444-0-7-2/6-
E|----7--------------------

Chorus
G|-----------------------------------------
D|----------------------------------------- x2
A|--------22222222-44444444-00000000-------
E|00000000---------------------------------

Wait for Tom to sing 2 sentences then play the verse x3

Chorus x2

Wait for Tom to sing, play the bridge when Mark sings

Bridge
G|------------
D|------------
A|7~-7~-7~-7~-
E|------------

G|-------------------------------------------------------------
D|-------------------------------------------------------------
A|--------22222222-44444444-00000000--------22222222-44444444/0
E|00000000--------------------------00000000-------------------

Ending
G|----------------------------------
D|---------------------------------- x8
A|--------22222202-44444444-00000000
E|00000000--------------------------




Song #2:Obvious

Enter at 0:06

Intro
G|----------
D|---------- x4
A|4-44------
E|----5-55-5

Verse
G|----------------
D|---------------- x2
A|44444444--------
E|--------55555555

Chorus-Note:If you don't want to play the chorus like this than just play open E
G|--------------------
D|-------------------- x2
A|7~------------------
E|--444-222-555-0000h2

Wait for 1 bar

Intro x3

Verse x2

Chorus x4
At the end of the 4th time of the chorus play A|4~ then fade out

Wait for Tom to play the bridge 2 times then play the bridge

Bridge
G|-------------------
D|------------------- x4
A|777---444-888-777-8
E|---555-------------

Ending
G|--------------------------------------------
D|-------------------------------------------- x4
A|77777777-66666666-77777777/14141414-12121212
E|--------------------------------------------

End on
G|--
D|--
A|4~
E|--






Song #3:I Miss You

Enter at 0:05

Intro/Verse
G|--------------------------
D|-------------------------- x6
A|--------------------------
E|-07-7~--06-6~--04-4~--06-6~

Chorus

G|---------------------------------------
D|--------------------------------------- x2
A|-2222-4444-6666-9999-7777777777777777--
E|---------------------------------------

Chorus end
G|--
D|--
A|2~
E|--

Go back to verse x4

Then to chorus x2

Then to chorus end

Then play the bridge

Bridge
G|-------------------------------------------------------
D|-------------------------------------------------------
A|-------------------------------------------------------
E|-04-4~--06-6~--07-7~--06-6~--04-4~--06-6~--07-7~--06-6~

After the bridge just play the chorus to the end







Song #4:Violence

Intro (At 0:17 and at 0:25)
G|--- G|------
D|--- D|------
A|2-2 OR A|2-22-2 (Which either one you prefer)
E|-2- E|------

Pre Verse
G|----------------------------------
D|---------------------------------- x2
A|22222222-44444444-----------------
E|-----------------44444444-66666666

Verse
G|-----
D|----- x4
A|2-4--
E|---6-

Chorus
G|----------------------------------
D|---------------------------------- x2
A|22222222-44444444-----------------
E|-----------------44444444-66666666

Verse x4

Chorus x2

Bridge
G|---------------------------------------
D|--13--13--13--11--11-11--9--9-9--9--9-9 x5
A|14---14-14---9---9--9---6--6-6--7--7-7-
E|---------------------------------------

Hold the last note for a second or two on the fifth time around

Chorus x4

End on
G|--
D|--
A|2~
E|--





Song #5:Stockholm Syndrome

Intro
G|------------------------------------------------
D|------------------------------------------------
A|----3333----0000--------33333333--------00003333
E|0000----3333----00000000--------33333333--------

Chorus
G|-----------------------------------------------------------------
D|-----------------------------------------------------------------
A|--------33333333--------0000-------------33333333--------00003333
E|00000000--------33333333----2222-00000000--------33333333--------

Piano Part
G|----------------------------------------------------------------------
D|----------------------------------------------------------------------
A|--22222222-33333333--22222222-33333333--------22223333--------22223333
E|0~-----------------0~-----------------00000000--------00000000--------

G|--------------------------------
D|--------------------------------
A|------3233333333--------0000----
E|000000----------33333333----3333

"I'm so lost.."
G|------------------------------------------------------------
D|------------------------------------------------------------
A|------32333333-22222222-0000-----------3233333333-22220000--
E|000000----------------------3333-000000-------------------3~

"You're cold with disappointment.."
G|----------------------------------
D|----------------------------------
A|------3233333333-22222222-0000----
E|000000------------------------3333

G|----------------------------------
D|----------------------------------
A|------3233333333-22222222-00003333
E|000000----------------------------

Chorus

End on
G|--
D|--
A|--
E|0~





Song #6:Down

Enter at 0:12

Intro
G|----------------
D|---------------- x2
A|2-22-2-222------
E|----------44-666

Verse
G|---------------
D|--------------- x4
A|6/2-222/6------
E|---------44-666

End Verse
G|--
D|--
A|--
E|0~

Chorus
G|--------------------------------------------------
A|--------------------------------------------------
D|-----------------22222222-------------------------
E|44444444-66666666--------22222222-44444444-6666666

Post-Chorus
G|----------------------------------
D|---------------------------------- x2
A|22222222--------------------------
E|--------00000000-44444444-00000000

End Post-Chorus
G|--
D|--
A|2~
E|--

Wait for Tom to sing two bars

Verse x2

End Verse

Chorus

Post Chorus

End Post-Chorus





Song #7:The Fallen Interlude

Tuning:DADE

Intro
G|------------------------------
D|------------------------------
A|----0--------------0----------
D|2222-2-2222-22-2222-2-2222-0-2

1st part
G|--------------|--------------|--------------|---------------
D|--------------|--------------|--------------|---------------
A|----0---------|----0---------|----0---------|----0----------
D|2222-2-2222-22|2222-2-2222-22|2222-2-2222-22|2222-2-2222-0-2

Wait for one bar

2nd Part
G|--------------|--------------|---------------
D|--------------|--------------|---------------
A|----0---------|----0---------|----0----------
D|2222-2-2222-22|2222-2-2222-22|2222-2-2222-0-2

3rd Part
G|--------------|--------------|--------------|---------------
D|--------------|--------------|--------------|---------------
A|--------------|--------------|----0---------|----0----------
D|-------2222-22|-------2222-22|2222-2-2222-22|2222-2-2222-0-2

4th Part
G|--------------|--------------|--------------|---------------
D|--------------|--------------|--------------|--------------- x2
A|----0---------|----0---------|----0---------|----0----------
D|2222-2-2222-22|2222-2-2222-22|2222-2-2222-22|2222-2-2222-0-2



Song #8:Go

Back to normal tuning:EADG

Intro
G|-----------------
D|----------------- x2
A|33333333-88888888
E|-----------------

Verse
G|----------------
D|---------------- x2
A|33333333--------
E|--------11111111 (These are 1's)

Chorus
G|-----------------
D|----------------- x2
A|-----------------
E|55555555-11111111

Intro x2

Verse x2

Chorus x2

Intro x2

Bridge
G|----------------------------------
D|----------------------------------
A|33333333--------33333333----------
E|--------11111111--------11111111-5

Wait for Mark to sing "I don't wanna know" 4 times

Chorus x2

Outro
G|-----------------
D|----------------- x3
A|33333333-88888888
E|-----------------

G|-----------
D|-----------
A|-----------
E|33333333-1~



Song #9:Asthenia

Enter at 0:53

Intro
G|-----------------------------------
D|----------------------------------- x2
A|55555555-77777777-22222222-00000000
E|-----------------------------------

Verse-Note:I don't know if Mark plays the verse
G|-----------------------------------
D|----------------------------------- x4
A|55555555-44444444-22222222-44444444
E|-----------------------------------

Pre-Chorus-Note:These are 10's
G|---------------------------------------------------
D|--------------------------------------------------- x2
A|55555555-1010-999999-55555555-1010101010101010-5555
E|---------------------------------------------------

Chorus
G|--------------------------------------------------------
D|--------------------------------------------------------
A|--------------------------4~--------------------------4~
E|22222222-33333333-55555555--22222222-33333333-55555555--

Intro x2

Verse x2

Pre-Chorus x2

Chorus x2

Bridge
G|----------------------------------
D|---------------------------------- x4
A|5555555555------------------------
E|----------555555-33333333-00000033

G|--
D|--
A|5~
E|--

Wait for Travis' mini solo

Chorus x2

Outro
G|-----------------------------------------------
D|-----------------------------------------------
A|55555555-1010-99999-55555-1010101010101010-5555
E|-----------------------------------------------

G|---------------------------
D|---------------------------
A|55555555-1010-99999-55555--
E|-------------------------3~





Song #10:Always

Enter at 0:11

Intro
G|4444-6666-8888-4444
D|4444-4444-6666-2222 x2
A|-------------------
E|-------------------

1st Verse
G|1111111111111111-66666666-4444444444444444
D|9-9-9-9-9-9-9-9--44444444-6666666666666666 x3
A|------------------------------------------
E|------------------------------------------

G|1111111111111111-66666666-4444---------
D|9-9-9-9-9-9-9-9--44444444-6666-11111111
A|-------------------------------9-9-9-9-
E|---------------------------------------

Pre-Chorus
G|44444444-66666666-88888888-44444444
D|44444444-44444444-66666666-22222222 x2
A|-----------------------------------
E|-----------------------------------

Chorus
G|----------------------------------
D|---------------------------------- x2
A|22222222-99999999-----------------
E|-----------------44444444-00000000

Intro x2

2nd Verse-Note:I don't know if Mark plays the 2nd verse
G|-----------
D|----------- x4
A|2~-1~------
E|-----4~-24~

Pre-Chorus x4

Chorus x4

Bridge
G|----------------------------------
D|---------------------------------- x2
A|22222222-44444444-----------------
E|-----------------44444444-00000000

Pre-Chorus x2

Wait for Tom to sing two sentences

Chorus x4

Outro
G|----------------------------------
D|---------------------------------- x4
A|22222222-44444444-----------------
E|-----------------44444444-00000000

End on
G|--
D|--
A|2~
E|--







Song #11:Easy Target

Enter at 0:07

Intro
G|-----------------
D|----------------- x4
A|-----------------
E|22222222-55550000

Verse
G|----------------
D|---------------- x2
A|--------2224445~
E|222050/5--------


G|----------------------
D|---------------------- x2
A|--------22244455555555
E|222050/5--------------

Chorus
G|-----------------
D|----------------- x4
A|-----------------
E|22222222-55550000

Verse
G|-----------------
D|----------------- x2
A|---------2224445~
E|222050/5---------


G|-----------------------
D|----------------------- x2
A|---------22244455555555
E|222050/5---------------

Chorus x4

Bridge
G|----------------
D|---------------- x3
A|55555555--------
E|--------55550000

G|-----------------
D|-----------------
A|55555555-44444444
E|-----------------

Chorus x4

End on
G|--
D|--
A|--
E|2~






Song #12:All of This

Enter at 0:17

Verse
G|-----------------
D|----------------- x4
A|---------2224445~
E|2220550/5--------


Chorus
G|--------------------------
D|-------------------------- x2
A|--------------------------
E|55555555-444455555555-7777

Wait for Tom and Travis to do their intro

Verse x4

Chorus x12

Verse x4

Outro
G|-------------------
D|------------------- x2
A|-----------222-4-5~
E|222-0-2-0-2--------








Song #13:Here's Your Letter

Inrto
G|----------------------------------------------------------------
D|----------------------------------------------------------------
A|--------55555555--------22222222--------55555555----------------
E|22222222--------55555555--------22222222--------5555555555555555

Verse
G|----------------------------------------------------------------
D|---------------------------------------------------------------- x2
A|--------5555-5-5--------2222-2-2--------5555-5-5----------------
E|2222-2-2--------5555-5-5--------2222-2-2--------5555555555555555

Chorus
G|-------------------------------------
D|------------------------------------- x2
A|----4444-------------5555555555555555
E|5555----0000-22222222----------------

Intro

Verse x2

Chorus x4

Bridge-Note:Which either one you prefer
G|---------------- G|-----------------
D|---------------- x2 D|----------------- x2
A|--------55555555 OR A|44444444-55555555
E|55555555-------- E|-----------------

G|----------------------------------
D|---------------------------------- x2
A|----------------------------------
E|22222222-44444444-5555555555555555

Chorus x4

Intro

End on
G|--
D|--
A|--
E|2~








Song #14:I'm Lost Without You

Enter at 0:38

Intro
G|-----------------------------------
D|-----------------------------------
A|2/99999999-77777777--------22222222
E|-------------------55555555--------

G|-----------------------------
D|-----------------------------
A|2/99999999-77777777--------2~
E|-------------------55555555--

Chorus
G|----------------------
D|---------------------- x2
A|4040-------4040-------
E|----0044-45----0077-75

Verse
G|---------------------------------
D|--------------------------------- x3
A|99999999-77777777--------22222222
E|-----------------55555555--------

G|---------------------------
D|---------------------------
A|99999999-77777777--------2~
E|-----------------55555555--

Chorus x4

skater danny
12-29-2005, 12:00 AM
thanks

Vivica
12-29-2005, 02:07 AM
careful, the MPA'll be on your ass...

SkateorElse
12-29-2005, 05:38 AM
Thanks alot

UnDeRgRoUnD NeTwOrK
12-29-2005, 07:54 AM
Also if anyone needs tabs I can more then likely find em for you.

Vivica
12-29-2005, 07:56 AM
frankly if you can't find tabs for most popular artists on the internet, you shouldn't be allowed on a computer...

SkateorElse
12-29-2005, 08:00 AM
http://www.ultimate-guitar.com theres alot of good tabs there

UnDeRgRoUnD NeTwOrK
12-29-2005, 08:00 AM
Trust me Vivica Ive seen worse people with a computer haha. But most of these people figure Mxtabs was the only one to go to.

dain84
12-29-2005, 10:45 AM
How the hell can you play two notes at once?

Vivica
12-29-2005, 10:47 AM
quite easily...

UnDeRgRoUnD NeTwOrK
12-29-2005, 11:13 AM
Its just strumming man like for a guitar but with bass.

dain84
12-29-2005, 11:40 AM
quite easily...
I don't see how you can hit two strings at the exact same time when you're using a pick.

UnDeRgRoUnD NeTwOrK
12-29-2005, 11:44 AM
Its like strumming. Just strum the notes. I play alot of songs with strumming in them. Its actually quite fun once you learn how to do it. Implementing it into songs you make. If you'd like I could record me doing some strumming so you understand what it is more throughly.

dain84
12-29-2005, 11:46 AM
I know what strumming is, I just didn't think bass players did it.

UnDeRgRoUnD NeTwOrK
12-29-2005, 11:48 AM
Yea its not to common from what I've listened to but Blink did it alot back in the day and Strung Out does some pretty fast strumming from time to time. It really helps with creativity.

magic mushroom
12-29-2005, 06:19 PM
that's alright, and also, the MPA can't do jack, from what i know. i am just sharing my knowledge. i was using the ones from sites for personal uses, and for all they know i made these up myself. lol