PDA

View Full Version : Easy songs on guitar.



gsosa
09-03-2007, 04:11 PM
Well, I bought a guitar like 2 years ago and I never started playing, Now I'm back into it, and Already know Hey Jude and Knocking on heavens door(which I learned in music class just in a day) can anyone recommend me some other easy songs, but a bit more challenging.

jpharaoh69
09-03-2007, 04:19 PM
wish you were here - pink floyd. one of the best beginner songs ever because its got hammer-ons, slides, bends, a stumming mixed with picking rhythm section and i nice easy solo.

most nirvana and blink 182 songs are easy as well.

Diegodreamspin
09-03-2007, 04:21 PM
anything by nirvana.. try about a girl
anything by green day.. try basket case

Skaterdude
09-03-2007, 04:27 PM
Any song from the White Stripes.

gsosa
09-03-2007, 04:33 PM
Alriht thanks guys if you could get me the tabs that would be good, too.

Marevix
09-03-2007, 04:54 PM
http://ultimate-guitar.com/tabs/e/ensiferum/wanderer_guitar_pro.htm

Ensiferum's "Wanderer" on rhythm is quite easy for anyone with basic palm muting skills, and lead is even easier.

jpharaoh69
09-03-2007, 07:00 PM
http://www.ultimate-guitar.com/tabs/p/pink_floyd/wish_you_were_here_guitar_pro.htm

and if you don't have guitar pro(which you should):
http://www.ultimate-guitar.com/tabs/p/pink_floyd/wish_you_were_here_ver5_tab.htm

EDIT: ^for "wish you were here"

generalyum
09-03-2007, 07:12 PM
Master of the puppets...

Lol jk jk. Iron man, and Smoke on the water is really easy. They were so easy I learned them by ear.

Skaterdude
09-03-2007, 07:23 PM
Master of the puppets...

Lol jk jk. Iron man, and Smoke on the water is really easy. They were so easy I learned them by ear.

I'd bet you're playing Smoke on the Water incorrectly.

jpharaoh69
09-03-2007, 07:26 PM
I'd bet you're playing Smoke on the Water incorrectly.

so many people do that. they play the full power chord when your not supposed to play the root note....even though it does sound fuller.

gsosa
09-03-2007, 07:28 PM
I'd bet you're playing Smoke on the Water incorrectly.

Is it still easy? It doesnt sound very hard.

jpharaoh69
09-03-2007, 07:36 PM
Is it still easy? It doesnt sound very hard.

yea its actually easier.

people play:
|--------------------------------------|
|--------------------------------------|
|----3-5-----3-6-5------3-5--3----|
|-5-3-5---5-3-6-5---5-3-5--3-5--|
|-5-1-3---5-1-4-3---5-1-3--1-5--|
|-3--------3-----------3----------3--|

it's supposed to be:
|--------------------------------------|
|--------------------------------------|
|-0-3-5---0-3-6-5---0-3-5--3-0--|
|-0-3-5---0-3-6-5---0-3-5--3-0--|
|--------------------------------------|
|--------------------------------------|

^the opens can be 5's one string lower if you want

Skaterdude
09-03-2007, 08:07 PM
yea its actually easier.

people play:
|--------------------------------------|
|--------------------------------------|
|----3-5-----3-6-5------3-5--3----|
|-5-3-5---5-3-6-5---5-3-5--3-5--|
|-5-1-3---5-1-4-3---5-1-3--1-5--|
|-3--------3-----------3----------3--|

it's supposed to be:
|--------------------------------------|
|--------------------------------------|
|-0-3-5---0-3-6-5---0-3-5--3-0--|
|-0-3-5---0-3-6-5---0-3-5--3-0--|
|--------------------------------------|
|--------------------------------------|

^the opens can be 5's one string lower if you want

Still wrong. It's:

E---------------------------------------------------------------
B-----------------------------------------------------------
G-------3----5-----------3----6---5----------3---5---3-----------
D--5----3----5------5---3----6---5-----5---3---5---3---5-------
A--5-----------------5--------------------5----------------5-------
E------------------------------------------------------------

Shawnyboy
09-04-2007, 12:32 AM
Still wrong. It's:

E---------------------------------------------------------------
B-----------------------------------------------------------
G-------3----5-----------3----6---5----------3---5---3-----------
D--5----3----5------5---3----6---5-----5---3---5---3---5-------
A--5-----------------5--------------------5----------------5-------
E------------------------------------------------------------

yep thats it, and yeah iron man would be good, same with nirvana songs,

riskitforabiscuit
09-04-2007, 02:13 AM
Still wrong. It's:

E---------------------------------------------------------------
B-----------------------------------------------------------
G-------3----5-----------3----6---5----------3---5---3-----------
D--5----3----5------5---3----6---5-----5---3---5---3---5-------
A--5-----------------5--------------------5----------------5-------
E------------------------------------------------------------
Why does it matter? It is the same notes; D and G.

jpharaoh69
09-04-2007, 07:05 AM
Still wrong. It's:

E---------------------------------------------------------------
B-----------------------------------------------------------
G-------3----5-----------3----6---5----------3---5---3-----------
D--5----3----5------5---3----6---5-----5---3---5---3---5-------
A--5-----------------5--------------------5----------------5-------
E------------------------------------------------------------

i said the opens can be 5's. read the damn post.

Skaterdude
09-04-2007, 12:36 PM
Why does it matter? It is the same notes; D and G.

It doesn't. I'm just picky to an unreasonable degree.

gsosa
09-04-2007, 02:22 PM
I learned it this way.

|--------------------------------------|
|--------------------------------------|
|-0-3-5---0-3-6-5---0-3-5--3-0--|
|-0-3-5---0-3-6-5---0-3-5--3-0--|
|--------------------------------------|
|--------------------------------------|